Footsteps Tab

Hey guys!

 

Hope the world is treating you all well. I had a tab request on Facebook from Jeremy Becker for “Footsteps” and here she is! Feel free to write any questions in the comments and I’ll get back to you as soon as I can.

 

I made a little video explaining how to play the percussive ‘hits” in between notes. Check it out before you start into the tune.

 

 

FOOTSTEPS - Matt York (2005)

h = percussive hit of all the strings. 

Intro and Chorus

e|-------h---------h--------------------h-------------|
B|-------h---------h---3---3---3---3----h-------------|
G|---4---h------4--h-------2---4---4----h-------------|
D|---5---h------5--h--------------------h-------------|
A|-------h----x----h---3---3---3---3----h-------------|
E|---3---h--3------h--------------------h-------------|

Pre-Chorus

"I won't get in line…"

e|-------h------h------h------------------------------|
B|-------h------h------h------------------------------|
G|---2---h---5--h--4---h------4----(Repeat 3x)--7-----|
D|---3---h---5--h--5---h------5-----------------7-----|
A|-------h------h------h----x-------------------------|
E|---1---h---5--h--3---h--3---------------------6-----|

Bridge

e|------------h--------h-------h--------------------------|
B|-----7--7---h----5---h---5---h---3---3------------------|
G|-----O------h----O---h---O---h---O-----O-----(Repeat 3x)|
D|------------h--------h-------h-----------O--------------|
A|-----7------h----5---h---4---h---3----------------------|
E|-O----------h--------h--0----h-------------O------------|

e|------------h--------h--------h-----------h----------h----------h|
B|-----7--7---h----5---h---3----h-------3---h-----3----h-----3----h|
G|-----O------h----O---h---O----h-------0---h-----0----h-----0----h|
D|------------h--------h--------h------x----h----x-----h----x-----h|  Back to Chorus.
A|-----7------h----5---h---3----h----3------h---3------h---3------h|
E|-O----------h--------h--------h-----------h----------h----------h|